Anyone know songs from Gateways?

Music is a primeval force guiding its creators to ancient places. Share stories, compare equipment, join bands, get feedback.
Akkush
Neophyte
Posts: 9
Joined: 17 Mar 2019, 01:26

Anyone know songs from Gateways?

Postby Akkush » 19 Mar 2019, 17:14

Hi!

I'm learning the Gateways album by ear, but there are a few riffs that I just can't figure it out.

For example, I learned Opening of the gates, excepte the first riff.
I also checked the tabs but they are wrong.

Anyone knows that song?
User avatar
shadowalk
Metal God
Posts: 12039
Joined: 13 Apr 2009, 09:16
Location: Manila, Philippines

Re: Anyone know songs from Gateways?

Postby shadowalk » 19 Mar 2019, 21:52

The intro? The palm muted triplets?
User avatar
iamgoat
Metal God
Posts: 8412
Joined: 13 Apr 2009, 14:44
Location: above highest of highs, below lowest of lows

Re: Anyone know songs from Gateways?

Postby iamgoat » 19 Mar 2019, 22:12

I used to be able to play that entire album.
Same with Formulas and Heretic.

That’s too long ago though.

I think the tab on metaltabs was alright. But that website isn’t around anymore I guess.
User avatar
zim
Zim(a)
Posts: 22219
Joined: 14 Apr 2009, 02:36
Location: US

Re: Anyone know songs from Gateways?

Postby zim » 19 Mar 2019, 22:38

i never could decipher a lot of ma's chugging rhythm parts :oldryan:

why do we not have a repository of legit ma tabs :idea:
Akkush
Neophyte
Posts: 9
Joined: 17 Mar 2019, 01:26

Re: Anyone know songs from Gateways?

Postby Akkush » 19 Mar 2019, 23:41

shadowalk wrote:The intro? The palm muted triplets?


Yes, the palm muted triplets.
It's so muddy or I don't know.

I can't even hear that are single notes or he play chords, or the two guitars play the some...
User avatar
zim
Zim(a)
Posts: 22219
Joined: 14 Apr 2009, 02:36
Location: US

Re: Anyone know songs from Gateways?

Postby zim » 20 Mar 2019, 02:42

paging Taurean Mixing :idea:
User avatar
iamgoat
Metal God
Posts: 8412
Joined: 13 Apr 2009, 14:44
Location: above highest of highs, below lowest of lows

Re: Anyone know songs from Gateways?

Postby iamgoat » 21 Mar 2019, 02:42

I can’t remember how that riff goes.
I could figure out the rest of the album again some time. The songs aren’t that difficult to play but sure are great.
User avatar
zim
Zim(a)
Posts: 22219
Joined: 14 Apr 2009, 02:36
Location: US

Re: Anyone know songs from Gateways?

Postby zim » 21 Mar 2019, 04:57

ageless, still I am will put anyone's picking endurance to the test :idea: :homework:
User avatar
iamgoat
Metal God
Posts: 8412
Joined: 13 Apr 2009, 14:44
Location: above highest of highs, below lowest of lows

Re: Anyone know songs from Gateways?

Postby iamgoat » 21 Mar 2019, 11:53

I tabbed that song out for metaltabs back in the day zim :santa:
bob_here
God of Emptiness
Posts: 567
Joined: 17 Apr 2009, 10:08
Contact:

Re: Anyone know songs from Gateways?

Postby bob_here » 28 May 2019, 19:07

flesh it out guys, I can add my 2 cents if it helps
getsmarteye
Neophyte
Posts: 1
Joined: 08 Oct 2019, 19:49

Re: Anyone know songs from Gateways?

Postby getsmarteye » 09 Oct 2019, 18:51

Well, i don't know because i am listener only :D
janetjackson
Neophyte
Posts: 1
Joined: 15 Oct 2019, 13:59

Re: Anyone know songs from Gateways?

Postby janetjackson » 15 Oct 2019, 16:31

How to Play Triplets Here is video you can watch and learn how to play triplets. Click this youtube URL: https://www.youtube.com/watch?v=rV_LINKSICY In this video, Duncan Ryan shows you the process of playing Triplets, something that is commonly used in Metal and Rock.
User avatar
arborist shrub tarkington
Postwhore
Posts: 73131
Joined: 18 Apr 2009, 07:36

Re: Anyone know songs from Gateways?

Postby arborist shrub tarkington » 15 Oct 2019, 17:03

well that's the last time i let janet jackson post here
rhino wrote:like transgression but good
User avatar
shadowalk
Metal God
Posts: 12039
Joined: 13 Apr 2009, 09:16
Location: Manila, Philippines

Re: Anyone know songs from Gateways?

Postby shadowalk » 15 Oct 2019, 18:43

Janet jackson’s triplets
User avatar
zim
Zim(a)
Posts: 22219
Joined: 14 Apr 2009, 02:36
Location: US

Re: Anyone know songs from Gateways?

Postby zim » 16 Oct 2019, 02:17

janetjackson wrote:How to Play Triplets Here is video you can watch and learn how to play triplets. Click this youtube URL: https://www.youtube.com/watch?v=rV_LINKSICY In this video, Duncan Ryan shows you the process of playing Triplets, something that is commonly used in Metal and Rock.


the hard-on bearer in that video is hilariously bad
User avatar
arborist shrub tarkington
Postwhore
Posts: 73131
Joined: 18 Apr 2009, 07:36

Re: Anyone know songs from Gateways?

Postby arborist shrub tarkington » 16 Oct 2019, 04:53

you clicked :eek:
rhino wrote:like transgression but good
User avatar
zim
Zim(a)
Posts: 22219
Joined: 14 Apr 2009, 02:36
Location: US

Re: Anyone know songs from Gateways?

Postby zim » 16 Oct 2019, 08:03

eh you'll be safe as long as you never download anything
User avatar
Uni777
Ancient One
Posts: 1422
Joined: 17 Apr 2009, 02:23
Location: Hoth

Re: Anyone know songs from Gateways?

Postby Uni777 » 23 Oct 2019, 02:10

So I found these and remembered this thread.
Just copy and replace the font for courier So everything lines up again.







Morbid Angel - Summoning Redemption


Transcribed by: Bobby Rafuse
Structure by: death8699



Tune Gtr to Bb (This song is played on a 7 string tabbed on a 6 string)

SUMMONING REDEMPTION

Intro 1tx
|------------------------------------------------------------------|
|------------------------------------------------------------------|
|------------------------------------------------------------------|
|------------------------------------------------------------------|
|---------222211111111----1111------------222211111111----1--5--3--|
|-00001111------------3333----333300001111------------3333---3--1--|
pm . .


Riff A 8tx
|------------------------------------------------------------------|
|------------------------------------------------------------------|
|------------------------------------------------------------------|
|------------------------------------------------------------------| Gtr.
|---------22--11--11------11--------------22--11--11------1--5--3--| 1
|-00--11--------------33------33--00--11--------------33-----3--1--|
pm.. .. .. .. .. .. .. .. .. .. .. .. .. .. . . .
|------------------------------------------------------------------|
|------------------------------------------------------------------|
|------------------------------------------------------------------|
|------------------------------------------------------------------| Gtr.
|---------222211111111----1111------------222211111111----1--5--3--| 2
|-00001111------------3333----333300001111------------3333---3--1--|
pm . .


Riff B1
|--------------------------------------------|
|--------------------------------------------|
|---------------------/7~--------------------|
|-3~----3---2-----2----------6~----6~----6~--|
|---------------------/5~----------5~----5~--|
|-1~----1---0-----0----------4~----4~----4~--|


Riff B2
|--------------------------------------------|
|--------------------------------------------|
|---------------------/7~----------7~----7~--|
|-3~----3---2-----2----------6~----6~----6~--|
|---------------------/5~--------------------|
|-1~----1---0-----0----------4~----4~----4~--|


Riff A 4tx
Riff B1
RIff B2
Riff A 6tx


(Drums)


Riff C 10tx
|-------------------------------|
|-------------------------------|
|-------------------------------|
|-------------------------------|
|-5--5--2--5--2-2--5-3-2--5--2--|
|-3--3--0--3--0-0--3-1-0--3--0--|
pm. . . . .


Riff D
|---------------------------------------------------|
|---------------------------------------------------|
|---------------------------------------------------|
|---------------------------------------------------|
|---------------------------------33333333----------|
|-00000000111111111111111122222222---------11111111-|
| 4tx
|----------------------------------------------|
|----------------------------------------------|
|----------------------------------------------|
|---------------6----4~------------------------|
|-----------------6--4~---3333--------3333-----|
|-0000000000004------2~-------22222222----2222-|


Riff C 10tx
Riff D 8tx
Riff A 8tx
Riff B 2tx
Riff A 8tx
End.


That's pretty much all you need to know. There's not a whole lot to this
song
But it still kicks major ass!!

-------------------------------------------------------------------------------------------------------------------------------------------------------

Morbid Angel - Ageless, Still I Am
Album: Gateways to Annihilation
Tabbed by: Tom S. van Iersel
Tuning: Eb Ab Db Gb Bb Eb

Note: Listen VERY closely to all the rhythm changes
and all the triplets. This song is SOO Phenomonal!!

Intro riff
----------------------------||
----------------------------||
----------------------------|| gtr.1
----------------------------||
------------2-1--1----------||
000-00--2-3-----2-2-5-1-5-1-||
... ..

somewhere he plays:
----------------------------||
----------------------------||
----------------------------|| gtr.2
----------------------------||
-------2-1-------1----------||
000-00-----3-2--2-2-5-1-5-1-||
... ..

--------------------------------||
--------------------------------||
--------------------------------||
--------------------------------||
------------2-1--1-2--6-2-6-2---||
000-00--2-3-----2-2-------------||
... ..

Main Riff 1 (all trem.pick) 4x
-----------------------------------|
-----------------------------------|
-----------------------------------|
-----------------------------------|
5----3-2-3-2-------5----7-8-10-8---|
------------3-0-2------------------|
. . .. . .

Main Riff 2 (after 4x mainriff 1)
-----------------------------------------------------||
-----------------------------------------------------||
----------------------------------------------------o||
----------3---2------------------3------------------o||
5---3--232-5-3-5--0-3--5---3--232-5-10-5-10-5-10-5---||
-----------------------------------------------------||
... . . . . . ...

Riff 3
not sure) ending a) b) c)
--------------|--------|--------|--------|-----------------||
--------------|--------|--------|--------------------------||
--------------|--------|--------|--------------------------||
652-----------|-2"-3"--|-5"-6"--|-7"-8"--------------------||
---542--------|--------|--------|----------8-7-3-7---0-3---||
------532-010-|--------|--------|--------------------------||
......... ... . .


Riff 4 (after first solo)
really not sure about this |
---------------------------|
---------------------------|
---------------------------|
653-532--------------------|
-------542-----------------|
----------532-421-010-020--|
... ......... ... ... ...

--------------------------------------------------||
--------------------------------------------------||
-------------------------------------------------o||
-----------------------7x7--8--7-8-11-12-8-11-8--o||
8x8--9-8-5-8-5--3-2-3-----------------------------||
--------------------------------------------------||

Riff 5
4x
-----------------------|--------------||
-----------------------|--------------||
-----------------------|--------------||
-----------------------|--8--8--8--8--|| gtr.1
--3---4----3-5-4-3-4-3-|-5--5--5--5---||
/2------/2-------------|--------------||

**second solo**

Then back to Mainriff 1&2

last solo

End.
--------------------------------------------------------------------------------------------------------------------------------------------------------------------

MORBID ANGEL
Opening of the Gates
from the album "Gateways to Annihilation

Tabbed by Bobby Rafuse
Tuning - Bb (3 steps down)


*NOTE* Listen to the song for the correct time


Intro (sorry. Still can't get this one)
|-------|
|-------|
|-------|
|-????--|
|-????--|
|-????--|


Riff 1
|---------------------------------------------------|
|---------------------------------------------------|
|---------------------------------------------------|
|-4444444422221111222277775555----------------------|
|-----------------------------77775555333322223333--|
|---------------------------------------------------|


Riff 1 (continued)
|-----------------------------------------------|
|-----------------------------------------------|
|-----------------------------------------------|
|-----------------------------------------------|
|-444444445555555577775555----------------------|
|-------------------------77775555333322223333--|


Fill
|-----------------------------|
|-----------------------------|
|-----------------------------|
|-----------------------------|
|-4---5--4---5--4---5--4---5--|
|-2---3--2---3--2---3--2---3--|
pm. . . . . . . .


Riff 2
|-----------------------------------|
|-----------------------------------|
|-----------------------------------|
|-----------------------------------|
|-------------33--33------33--33----|
|-222222223333--22--222222--22--22--|


Riff 3
|------------------------------------------------------|
|------------------------------------------------------|
|------------------------------------------------------|
|------------------------------------------------------|
|--------------------------------------33333--33333----|
|-0002223332225553322555333000222333222-----22-----22--|


Riff 4a
|-----------------------------------------------------------|
|-----------------------------------------------------------|
|-----------------------------------------------------------| Gtr.
|-----------------------------------------------------------| 1
|-------1"------1"--4"------4"--3"------3"----3"----3"------|
|-2"--------2"----------6"-----------------4"----4"-----4"--|
| |
|-----------------------------------------------------------|
|-----------------------------------------------------------|
|-----------------------------------------------------------| Gtr.
|-----------------------------------------------------------| 2
|-------4"------4"--7"------7"--6"--------------------------|
|-5"--------5"----------9"----------------------------------|
* unsure about guitar 2


Riff 4b
|-------------------------------------------|
|-------------------------------------------|
|-------------------------------------------| Gtr.
|-------------------------------------------| 1
|-------1"------1"--4"------4"--6"------8"--|
|-2"--------2"----------6"------------------|
| |
|-------------------------------------------|
|-------------------------------------------|
|-------------------------------------------| Gtr.
|-------------------------------------------| 2
|-------4"------4"--7"------7"--6"----------|
|-5"--------5"----------9"------------------|
* unsure about guitar 2


Riff 5a
|-----------------------------------|
|-----------------------------------|
|-----------------------------------|
|-----------------------------------|
|-----------------111122221111------|
|-0000000022223333------------3333--|


Riff 5b
|--------------------------------------------------|
|--------------------------------------------------|
|--------------------------------------------------|
|--------------------------------------------------|
|-----------------111122221111-----2h3p2p0-444444--|
|-0000000022223333------------3333-----------------|


Riff 6
|------------------------------------------------------------------|
|------------------------------------------------------------------|
|-777777776666-------------------555555554444----------------------| Gtr.
|-------------7777---------------------------55554444--------------| 1
|-----------------88885554555555---------------------555544445555--|
|------------------------------------------------------------------|
| |
|------------------------------------------------------------------|
|------------------------------------------------------------------|
|------------------------------------------------------------------| Gtr.
|------------------------------------------------------------------| 2
|-222222221111222244445554555555-----------------------------------|
|--------------------------------22222222222222551111111111111111--|


Riff 7
|-------------------------------------------|
|-------------------------------------------|
|-------------------------------------------|
|-4------5------5----------7------7------2--|
|---------------2-----------------4------2--|
|-2------3------3----------5------5------0--|
*There is another guitar under this but I can't figure it out

end of song.

----------------------------------------------------------------------------------------------------------------------------------------------------------------------------------
Band: Morbid Angel
Album: Gateways to annihilation
Song: God of the forsaken

Transcribed By: Sigbjørn Henning


Tuning Bb Eb Ab Db F Bb Eb ( 7 String guitar)

Intro Riff 1 0:00 2x
Guitar 1
|--------------------------------------|
|--------------------------------------|
|---9---9--------10\(9)-9---9----------|
|--------------------------------------|
|---7---7--------8-\(7)-7---7----------|
|-0---0------3-4----------0------4-3-0-|
. . . . .


Guitar 2
|--------------------------------------|
|--------------------------------------|
|--------------------------------------|
|---9---9--------10\(9)-9---9--------2-|
|---8---8--------9--(8)-8---8--------1-|
|-0-7-0-7----3-4-8-\(7)-7-0-7----4-3---|
. . . . .


Riff 2 0:08 2x
Guitar 1
|---------------------------------------|
|---------------------------------------|
|---9---9---9----10\(9)-9---9---9-------|
|---------------------------------------|
|---7---7---7----8-\(7)-7---7---7-------|
|-0---0---0---3-4---------0---0---4-3-0-|


Guitar 2
|---------------------------------------|
|---------------------------------------|
|---------------------------------------|
|---9---9---------10\(9)-9---9--------2-|
|---8---8---------9--(8)-8---8--------1-|
|-0-7-0-7-----3-4-8-\(7)-7-0-7----4-3---|
. . . . .


Riff 3 0:16 1x
Guitar 1
|-----------------------------|
|-----------------------------|
|-----------------6b-5b-4b-3--|
|-----------------5b-4b-3b-2--|
|-----------------4b-3b-2b-1--|
|-----------------------------|


Guitar 2
|-----------------------------|
|-----------------------------|
|-5-5/6---3-3/4---6b-5b-4b-3--|
|-4-4/5---2-2/3---5b-4b-3b-2--|
|-3-3/4---1-1/2---4b-3b-2b-1--|
|-----------------------------|



Riff 3 0:20 1x
Guitar 1
|--------------------------------------
|--------------------------------------
|---9---9---9---10\(9)-9---9---9-------
|--------------------------------------
|---7---7---7---8-\(7)-7---7---7-------
|-0---0---0---0----------0---0---4-3-0-


----------------------------------------
----------------------------------------
---9---9---9---10\(9)-9---9-------------
----------------------------------------
---7---7---7---8-\(7)-7---7-------------
-0---0---0---0----------0---0-1-3-2-356-


--------------------------------------
--------------------------------------
---9---9---9---10\(9)-9---9---9-------
--------------------------------------
---7---7---7---8-\(7)-7---7---7-------
-0---0---0---0----------0---0---4-3-0-


---------------------------------------|
---------------------------------------|
---9---9---9---10\(9)-9---9------------|
---------------------------------------|
---7---7---7---8-\(7)-7---7------------|
-0---0---0---0----------0---0-1-4-1-3--|



Guitar 2 (play this under all the Guitar 1 bars)
|--------------------------------------|
|--------------------------------------|
|--------------------------------------|
|---9---9--------10\(9)-9---9--------2-|
|---8---8--------9--(8)-8---8--------1-|
|-0-7-0-7----3-4-8-\(7)-7-0-7----4-3---|




Riff 4 0:36 1x
Guitar 1
|--------------------------------
|--------------------------------
|-----------------2-3-5-6-5-3-5--
|-8-7-4-7-----6-3----------------
|-----------------0-1-3-4-3-1-3--
|-6-5-2-5-----4-1----------------


-----------------------------------------------
-----------------------------------------------
-----------------------------------------------
-7-6-3-6------5-2------------------------------
------------------3333444466667777666644446666-
-5-4-1-4------3-0------------------------------


--------------------------------
--------------------------------
-----------------2-3-5-6-5-3-5--
-8-7-4-7-----6-3----------------
-----------------0-1-3-4-3-1-3--
-6-5-2-5-----4-1----------------


-----------------------------------------------|
-----------------------------------------------|
-----------------------------------------------|
-7-6-3-6------5-2------------------------------|
------------------3333444466667777666644443333-|
-5-4-1-4------3-0------------------------------|

Guitar 2
|--------------------------------
|--------------------------------
|--------------------------------
|-8-7-4-7-----6-3-6-3-5-2-5-2-5--
|--------------------------------
|-6-5-2-5-----4-1-4-1-3-0-3-0-3--


------------------------------------------------
------------------------------------------------
------------------------------------------------
-7-6-3-6-------6-3------------------------------
-------------------0000111133334444333311113333-
-5-4-1-4-------4-1------------------------------


--------------------------------
--------------------------------
--------------------------------
-8-7-4-7-----6-3-6-3-5-2-5-2-5--
--------------------------------
-6-5-2-5-----4-1-4-1-3-0-3-0-3--


------------------------------------------------|
------------------------------------------------|
------------------------------------------------|
-7-6-3-6-------6-3------------------------------|
-------------------0000111133334444333311110000-|
-5-4-1-4-------4-1------------------------------|


Riff 3 0:52 1x
Guitar 1
|--------------------------------------
|--------------------------------------
|---9---9---9---10\(9)-9---9---9-------
|--------------------------------------
|---7---7---7---8-\(7)-7---7---7-------
|-0---0---0---0----------0---0---4-3-0-


----------------------------------------
----------------------------------------
---9---9---9---10\(9)-9---9-------------
----------------------------------------
---7---7---7---8-\(7)-7---7-------------
-0---0---0---0----------0---0-1-3-2-356-


--------------------------------------
--------------------------------------
---9---9---9---10\(9)-9---9---9-------
--------------------------------------
---7---7---7---8-\(7)-7---7---7-------
-0---0---0---0----------0---0---4-3-0-


---------------------------------------|
---------------------------------------|
---9---9---9---10\(9)-9---9------------|
---------------------------------------|
---7---7---7---8-\(7)-7---7------------|
-0---0---0---0----------0---0-1-4-1-3--|



Guitar 2 (play this under all the Guitar 1 bars)
|--------------------------------------|
|--------------------------------------|
|--------------------------------------|
|---9---9--------10\(9)-9---9--------2-|
|---8---8--------9--(8)-8---8--------1-|
|-0-7-0-7----3-4-8-\(7)-7-0-7----4-3---|




Riff 4 1:07
Guitar 1 1x
|--------------------------------
|--------------------------------
|-----------------2-3-5-6-5-3-5--
|-8-7-4-7-----6-3----------------
|-----------------0-1-3-4-3-1-3--
|-6-5-2-5-----4-1----------------


----------------------------------------------|
----------------------------------------------|
----------------------------------------------|
-7-6-3-6------5-2-----------------------------|
------------------333-444-666-777-666-444-666-|
-5-4-1-4------3-0-----------------------------|


Guitar 2
|--------------------------------
|--------------------------------
|--------------------------------
|-8-7-4-7-----6-3-6-3-5-2-5-2-5--
|--------------------------------
|-6-5-2-5-----4-1-4-1-3-0-3-0-3--


-----------------------------------------------|
-----------------------------------------------|
-----------------------------------------------|
-7-6-3-6-------6-3-----------------------------|
-------------------000-111-333-444-333-111-333-|
-5-4-1-4-------4-1-----------------------------|


Riff 5 1:16 x
Guitar 1
|--------------------------------
|--------------------------------
|-----------------2-3-5-6-5-3-5--
|-8-7-4-7-----6-3----------------
|-----------------0-1-3-4-3-1-3--
|-6-5-2-5-----4-1----------------


---------------------------|
---------------------------|
--------------3------------|
-7-6-3-6---------4---7---3-|
--------------1------------|
-5-4-1-4---------2---5---1-|
.

Guitar 2
|--------------------------------
|--------------------------------
|--------------------------------
|-8-7-4-7-----6-3-6-3-5-2-5-2-5--
|--------------------------------
|-6-5-2-5-----4-1-4-1-3-0-3-0-3--

---------------------------|
---------------------------|
--------------3------------|
-7-6-3-6--------4--7--3--6-|
--------------1------------|
-5-4-1-4--------2--5--1--4-|
.


Riff 6 1:24 1x
Guitar 1
|--------------------------------
|--------------------------------
|--------------------------------
|--------------------------------
|---44----------5555444422444444-
|-55--5544555555-----------------


----------------------------------------------|
----------------------------------------------|
----------------------------------------------|
---------------55554444444222-222244445555555-|
---33-----------------------------------------|
-44--4433444444-------------------------------|



Guitar 2
|--------------------------------
|--------------------------------
|--------------------------------
|-8-7-4-7-----6-3-6-3-5-2-5-2-5--
|--------------------------------
|-6-5-2-5-----4-1-4-1-3-0-3-0-3--


-----------------------------------------------|
-----------------------------------------------|
-----------------------------------------------|
-7-6-3-6-------6-3-----------------------------|
-------------------000-111-333-444-333-111-333-|
-5-4-1-4-------4-1-----------------------------|


Riff 7 1:32 1x
Guitar 1
|--------------------------------
|--------------------------------
|--------------------------------
|--------------------------------
|---44----------5555444422444444-
|-55--5544555555-----------------


-----------------------------------------|
-----------------------------------------|
-----------------------------------------|
---------------55554444444222------------|
---33-------------------------554422-----|
-44--4433444444---------------------5555-|


Guitar 2
|--------------------------------
|--------------------------------
|--------------------------------
|-8-7-4-7-----6-3-6-3-5-2-5-2-5--
|--------------------------------
|-6-5-2-5-----4-1-4-1-3-0-3-0-3--


------------------------------------------|
------------------------------------------|
------------------------------------------|
-7-6-3-6-----6-3--------------------------|
-----------------000-111-333-444-333-1100-|
-5-4-1-4-----4-1--------------------------|





Riff 8 1:39 Under Solo 1 1x
Guitar 1
|---------------------------------------
|---------------------------------------
|---------------------------------------
|-------------------"-----------"-"-"-"-
|-"---"-"-"-"-"-"-"-2---"-"-"-"-2-3-5-6-
|-2---3-5-6-5-5-3-2-----3-5-6-5---------


------------------------------------
------------------------------------
------------------------------------
----------------"----------------"--
--"-"-"-"-"-"-"-3---"-"-"-"-"-"-"-3-
--3-5-6-5-5-3-2-----3-5-6-5-5-3-2---


------------------------------------------
------------------------------------------
------------------------------------------
----------------"-----------------------"-
--"-"-"-"-"-"-"-3-110---"-"-"-"-"-"-"-"-3-
--3-5-6-5-5-3-2-----------3-5-6-5-5-3-2---


-------------------------------|
-------------------------------|
-------------------------------|
---------------"---------------|
-"-"-"-"-"-"-"-2---"-"-"-"-"---|
-3-5-6-5-5-2-1-----3-5-6-5-5-2-|


Guitar 2 plays the same as
Guitar 1 does in Riff 3
|--------------------------------------
|--------------------------------------
|---9---9---9---10\(9)-9---9---9-------
|--------------------------------------
|---7---7---7---8-\(7)-7---7---7-------
|-0---0---0---0----------0---0---4-3-0-


----------------------------------------
----------------------------------------
---9---9---9---10\(9)-9---9-------------
----------------------------------------
---7---7---7---8-\(7)-7---7-------------
-0---0---0---0----------0---0-1-3-2-356-


--------------------------------------
--------------------------------------
---9---9---9---10\(9)-9---9---9-------
--------------------------------------
---7---7---7---8-\(7)-7---7---7-------
-0---0---0---0----------0---0---4-3-0-


---------------------------------------|
---------------------------------------|
---9---9---9---10\(9)-9---9------------|
---------------------------------------|
---7---7---7---8-\(7)-7---7------------|
-0---0---0---0----------0---0-1-4-1-3--|



Riff 9 1:55 2x
Guitar 1
|-----------------------------------------|
|-----------------------------------------|
|-----------------------------------------|
|-/4---/3---/4-/3-4-3----/7---/6----""-""-|
|----------------------------------/4-/5--|
|-/2---/1---/2-/1-2-1----/5---/4----------|


Guitar 2
|------------------------------------------|
|------------------------------------------|
|------------------------------------------|
|-/4---/3---/4-/3-4-3---(7)\3---2----------|
|--------------------------------------2-1-|
|-/2---/1---/2-/1-2-1---(5)\1---0--2-3-----|



Riff 10 2:11 1x
Guitar 1
|---------------------------------------
|---------------------------------------
|---------------------------------------
|-/4---/3---/4--""-""--/4---3-----------
|--------------/4-/5----------""-""-""--
|-/2---/1---/2---------/2---1-5--2--3---


------------------------------------------|
------------------------------------------|
-----------""-----""----------------------|
-/4---/3---2--00220---/4---3--------"-"---|
-----------------------------""-""--3-1-"-|
-/2---/1--------------/2---1-5--2-------1-|


Guitar 2
|----------------------------------------------
|----------------------------------------------
|----------------------------------------------
|-/4---/3---/4-/3-4-3---(7)\3---2--------------
|--------------------------------------2-1-----
|-/2---/1---/2-/1-2-1---(5)\1---0--2-3-----3-2-


----------------------------------------------|
----------------------------------------------|
----------------------------------------------|
-/4---/3---/4-/3-4-3---(7)\3---2--------------|
--------------------------------------2-1-----|
-/2---/1---/2-/1-2-1---(5)\1---0--2-3-----3-2-|


Riff 11 2:27 under Solo 2 2x
Guitar 1
|-----------------------------------------------------
|-----------------------------------------------------
|-----------------------------------------------------
|-3--/10---10-8-6-8-8----3--/11--11-10-8--10-11-13-11-
|-----------------------------------------------------
|-1--/8----8--6-4-6-6----1--/9---9--8--6--8--9--11-9--



-------------------------------------------------------|
-------------------------------------------------------|
-------------------------------------------------------|
-3--/10---10-8-6-8-8----/11--10/11\10--8-6-8-8--10-8-6-|
-------------------------------------------------------|
-1--/8----8--6-4-6-6----/9---8-/9-\8---6-4-6-6--8--6-4-|



Guitar 2
|--------------------------------------------
|--------------------------------------------
|--------------------------------------------
|-3--/6---6-3-2-5-5----3--/8--8-6-5-6-8-10-8-
|--------------------------------------------
|-1--/4---4-1-0-3-3----1--/6--6-4-3-4-6-8--6-


----------------------------------------------|
----------------------------------------------|
----------------------------------------------|
-3--/6---6-3-2-5-5----/8---7/8\7--6-2-3-5-6-5-|
----------------------------------------------|
-1--/4---4-1-0-3-3----/6---5/6\5--4-0-1-3-4-3-|



Riff 4 2:58 2x
Guitar 1
|--------------------------------
|--------------------------------
|-----------------2-3-5-6-5-3-5--
|-8-7-4-7-----6-3----------------
|-----------------0-1-3-4-3-1-3--
|-6-5-2-5-----4-1----------------


-----------------------------------------------
-----------------------------------------------
-----------------------------------------------
-7-6-3-6------5-2------------------------------
------------------3333444466667777666644446666-
-5-4-1-4------3-0------------------------------


--------------------------------
--------------------------------
-----------------2-3-5-6-5-3-5--
-8-7-4-7-----6-3----------------
-----------------0-1-3-4-3-1-3--
-6-5-2-5-----4-1----------------


-----------------------------------------------|
-----------------------------------------------|
-----------------------------------------------|
-7-6-3-6------5-2------------------------------|
------------------3333444466667777666644443333-|
-5-4-1-4------3-0------------------------------|

Guitar 2
|--------------------------------
|--------------------------------
|--------------------------------
|-8-7-4-7-----6-3-6-3-5-2-5-2-5--
|--------------------------------
|-6-5-2-5-----4-1-4-1-3-0-3-0-3--


------------------------------------------------
------------------------------------------------
------------------------------------------------
-7-6-3-6-------6-3------------------------------
-------------------0000111133334444333311113333-
-5-4-1-4-------4-1------------------------------


--------------------------------
--------------------------------
--------------------------------
-8-7-4-7-----6-3-6-3-5-2-5-2-5--
--------------------------------
-6-5-2-5-----4-1-4-1-3-0-3-0-3--


------------------------------------------------|
------------------------------------------------|
------------------------------------------------|
-7-6-3-6-------6-3------------------------------|
-------------------0000111133334444333311110000-|
-5-4-1-4-------4-1------------------------------|




Riff 3 3:30 1x
Guitar 1
|--------------------------------------
|--------------------------------------
|---9---9---9---10\(9)-9---9---9-------
|--------------------------------------
|---7---7---7---8-\(7)-7---7---7-------
|-0---0---0---0----------0---0---4-3-0-


----------------------------------------
----------------------------------------
---9---9---9---10\(9)-9---9-------------
----------------------------------------
---7---7---7---8-\(7)-7---7-------------
-0---0---0---0----------0---0-1-3-2-356-


--------------------------------------
--------------------------------------
---9---9---9---10\(9)-9---9---9-------
--------------------------------------
---7---7---7---8-\(7)-7---7---7-------
-0---0---0---0----------0---0---4-3-0-


--------------------------------------|
--------------------------------------|
---9---9---9---10\(9)-9---9---9-------|
--------------------------------------|
---7---7---7---8-\(7)-7---7---7-------|
-0---0---0---0----------0---0---4-3-0-|



Guitar 2 (play this under all the Guitar 1 bars)
|--------------------------------------|
|--------------------------------------|
|--------------------------------------|
|---9---9--------10\(9)-9---9--------2-|
|---8---8--------9--(8)-8---8--------1-|
|-0-7-0-7----3-4-8-\(7)-7-0-7----4-3---|
User avatar
iamgoat
Metal God
Posts: 8412
Joined: 13 Apr 2009, 14:44
Location: above highest of highs, below lowest of lows

Re: Anyone know songs from Gateways?

Postby iamgoat » 23 Oct 2019, 03:16

:thingy:
User avatar
shadowalk
Metal God
Posts: 12039
Joined: 13 Apr 2009, 09:16
Location: Manila, Philippines

Re: Anyone know songs from Gateways?

Postby shadowalk » 26 Oct 2019, 00:44

Vahmpy tabbed ageless :xx:
User avatar
iamgoat
Metal God
Posts: 8412
Joined: 13 Apr 2009, 14:44
Location: above highest of highs, below lowest of lows

Re: Anyone know songs from Gateways?

Postby iamgoat » 26 Oct 2019, 01:00

shadowalk wrote:Vahmpy tabbed ageless :xx:


yes i did :idea:

I wasn’t sure about many things :redneck:
User avatar
zim
Zim(a)
Posts: 22219
Joined: 14 Apr 2009, 02:36
Location: US

Re: Anyone know songs from Gateways?

Postby zim » 26 Oct 2019, 19:27

ageless will literally make your right arm fall off :homework:
User avatar
iamgoat
Metal God
Posts: 8412
Joined: 13 Apr 2009, 14:44
Location: above highest of highs, below lowest of lows

Re: Anyone know songs from Gateways?

Postby iamgoat » 26 Oct 2019, 21:23

Haha true. It’s a trem pick hell.

Return to “Musicians”

Who is online

Users browsing this forum: No registered users and 2 guests